ISO-10303-21;
HEADER;
FILE_DESCRIPTION (( 'STEP AP203' ),
    '1' );
FILE_NAME ('B270-RNDF-25.4-3.STEP',
    '2021-01-05T01:23:42',
    ( '' ),
    ( '' ),
    'SwSTEP 2.0',
    'SolidWorks 2020',
    '' );
FILE_SCHEMA (( 'CONFIG_CONTROL_DESIGN' ));
ENDSEC;

DATA;
#1 = APPLICATION_PROTOCOL_DEFINITION ( 'international standard', 'config_control_design', 1994, #164 ) ;
#2 = DIRECTION ( 'NONE',  ( -1.000000000000000000, -0.000000000000000000, -0.000000000000000000 ) ) ;
#3 = DATE_AND_TIME ( #16, #19 ) ;
#4 = LOCAL_TIME ( 9, 23, 42.00000000000000000, #124 ) ;
#5 = SHAPE_DEFINITION_REPRESENTATION ( #169, #160 ) ;
#6 = DIRECTION ( 'NONE',  ( -1.000000000000000000, -0.000000000000000000, -0.000000000000000000 ) ) ;
#7 = SECURITY_CLASSIFICATION ( '', '', #136 ) ;
#8 = CC_DESIGN_DATE_AND_TIME_ASSIGNMENT ( #3, #133, ( #141 ) ) ;
#9 = CARTESIAN_POINT ( 'NONE',  ( 0.000000000000000000, 0.000000000000000000, 12.69999999999999929 ) ) ;
#10 = ORIENTED_EDGE ( 'NONE', *, *, #15, .F. ) ;
#11 = CC_DESIGN_PERSON_AND_ORGANIZATION_ASSIGNMENT ( #134, #28, ( #141 ) ) ;
#12 = DIRECTION ( 'NONE',  ( 0.000000000000000000, 0.000000000000000000, 1.000000000000000000 ) ) ;
#13 = PERSON_AND_ORGANIZATION ( #86, #168 ) ;
#14 =( LENGTH_UNIT ( ) NAMED_UNIT ( * ) SI_UNIT ( .MILLI., .METRE. ) );
#15 = EDGE_CURVE ( 'NONE', #35, #23, #132, .T. ) ;
#16 = CALENDAR_DATE ( 2021, 5, 1 ) ;
#17 = APPROVAL ( #150, 'UNSPECIFIED' ) ;
#18 = DIRECTION ( 'NONE',  ( -0.000000000000000000, 0.000000000000000000, 1.000000000000000000 ) ) ;
#19 = LOCAL_TIME ( 9, 23, 42.00000000000000000, #76 ) ;
#20 = EDGE_LOOP ( 'NONE', ( #90, #104, #119, #24 ) ) ;
#21 = CIRCLE ( 'NONE', #77, 12.69999999999999929 ) ;
#22 = CARTESIAN_POINT ( 'NONE',  ( 1.999999999999998224, 0.000000000000000000, 0.000000000000000000 ) ) ;
#23 = VERTEX_POINT ( 'NONE', #172 ) ;
#24 = ORIENTED_EDGE ( 'NONE', *, *, #41, .F. ) ;
#25 = CYLINDRICAL_SURFACE ( 'NONE', #143, 12.69999999999999929 ) ;
#26 = EDGE_CURVE ( 'NONE', #156, #35, #157, .T. ) ;
#27 = APPLICATION_PROTOCOL_DEFINITION ( 'international standard', 'config_control_design', 1994, #96 ) ;
#28 = PERSON_AND_ORGANIZATION_ROLE ( 'creator' ) ;
#29 = ADVANCED_FACE ( 'NONE', ( #140 ), #48, .F. ) ;
#30 = PERSON_AND_ORGANIZATION ( #86, #168 ) ;
#31 = APPROVAL_DATE_TIME ( #155, #64 ) ;
#32 = CC_DESIGN_APPROVAL ( #64, ( #7 ) ) ;
#33 = CIRCLE ( 'NONE', #114, 12.69999999999999929 ) ;
#34 = CALENDAR_DATE ( 2021, 5, 1 ) ;
#35 = VERTEX_POINT ( 'NONE', #173 ) ;
#36 = CARTESIAN_POINT ( 'NONE',  ( 0.000000000000000000, 1.555301434917138433E-15, -12.69999999999999929 ) ) ;
#37 = CC_DESIGN_APPROVAL ( #102, ( #52 ) ) ;
#38 = CARTESIAN_POINT ( 'NONE',  ( 1.999999999999998224, 0.000000000000000000, 12.69999999999999929 ) ) ;
#39 = CARTESIAN_POINT ( 'NONE',  ( 1.999999999999998224, 0.000000000000000000, 0.000000000000000000 ) ) ;
#40 = CARTESIAN_POINT ( 'NONE',  ( -1.187907395172932594E-15, 0.000000000000000000, 0.000000000000000000 ) ) ;
#41 = EDGE_CURVE ( 'NONE', #156, #47, #74, .T. ) ;
#42 = DIRECTION ( 'NONE',  ( 0.000000000000000000, 0.000000000000000000, 1.000000000000000000 ) ) ;
#43 = CALENDAR_DATE ( 2021, 5, 1 ) ;
#44 = VECTOR ( 'NONE', #158, 1000.000000000000000 ) ;
#45 = DATE_AND_TIME ( #53, #138 ) ;
#46 = PERSON_AND_ORGANIZATION ( #86, #168 ) ;
#47 = VERTEX_POINT ( 'NONE', #57 ) ;
#48 = PLANE ( 'NONE',  #73 ) ;
#49 = CARTESIAN_POINT ( 'NONE',  ( 0.000000000000000000, 0.000000000000000000, 0.000000000000000000 ) ) ;
#50 = DIRECTION ( 'NONE',  ( -1.000000000000000000, -0.000000000000000000, -0.000000000000000000 ) ) ;
#51 =( NAMED_UNIT ( * ) PLANE_ANGLE_UNIT ( ) SI_UNIT ( $, .RADIAN. ) );
#52 = PRODUCT_DEFINITION_FORMATION_WITH_SPECIFIED_SOURCE ( 'ANY', '', #68, .NOT_KNOWN. ) ;
#53 = CALENDAR_DATE ( 2021, 5, 1 ) ;
#54 = DIRECTION ( 'NONE',  ( 1.000000000000000000, 0.000000000000000000, 0.000000000000000000 ) ) ;
#55 = ADVANCED_FACE ( 'NONE', ( #92 ), #128, .F. ) ;
#56 = CARTESIAN_POINT ( 'NONE',  ( 1.999999999999999112, 12.69999999999999929, 0.000000000000000000 ) ) ;
#57 = CARTESIAN_POINT ( 'NONE',  ( -1.187907395172932594E-15, 0.000000000000000000, 12.69999999999999929 ) ) ;
#58 = CC_DESIGN_SECURITY_CLASSIFICATION ( #7, ( #52 ) ) ;
#59 = EDGE_LOOP ( 'NONE', ( #145, #89 ) ) ;
#60 = CC_DESIGN_PERSON_AND_ORGANIZATION_ASSIGNMENT ( #153, #70, ( #7 ) ) ;
#61 = DIRECTION ( 'NONE',  ( -1.000000000000000000, -0.000000000000000000, -0.000000000000000000 ) ) ;
#62 = APPROVAL_STATUS ( 'not_yet_approved' ) ;
#63 = DIRECTION ( 'NONE',  ( -1.000000000000000000, -0.000000000000000000, -0.000000000000000000 ) ) ;
#64 = APPROVAL ( #117, 'UNSPECIFIED' ) ;
#65 = PERSON_AND_ORGANIZATION ( #86, #168 ) ;
#66 = PERSON_AND_ORGANIZATION_ROLE ( 'creator' ) ;
#67 = PRODUCT_RELATED_PRODUCT_CATEGORY ( 'detail', '', ( #68 ) ) ;
#68 = PRODUCT ( 'B270-RNDF-25.4-3', 'B270-RNDF-25.4-3', '', ( #80 ) ) ;
#69 = EDGE_CURVE ( 'NONE', #35, #156, #33, .T. ) ;
#70 = PERSON_AND_ORGANIZATION_ROLE ( 'classification_officer' ) ;
#71 = CC_DESIGN_PERSON_AND_ORGANIZATION_ASSIGNMENT ( #30, #87, ( #52 ) ) ;
#72 = DIRECTION ( 'NONE',  ( -1.000000000000000000, -0.000000000000000000, -0.000000000000000000 ) ) ;
#73 = AXIS2_PLACEMENT_3D ( 'NONE', #56, #75, #18 ) ;
#74 = LINE ( 'NONE', #9, #44 ) ;
#75 = DIRECTION ( 'NONE',  ( -1.000000000000000000, 0.000000000000000000, -0.000000000000000000 ) ) ;
#76 = COORDINATED_UNIVERSAL_TIME_OFFSET ( 8, 0, .AHEAD. ) ;
#77 = AXIS2_PLACEMENT_3D ( 'NONE', #106, #63, #109 ) ;
#78 = PERSON_AND_ORGANIZATION ( #86, #168 ) ;
#79 = CARTESIAN_POINT ( 'NONE',  ( 0.000000000000000000, 0.000000000000000000, 0.000000000000000000 ) ) ;
#80 = MECHANICAL_CONTEXT ( 'NONE', #164, 'mechanical' ) ;
#81 = AXIS2_PLACEMENT_3D ( 'NONE', #22, #6, #130 ) ;
#82 = CARTESIAN_POINT ( 'NONE',  ( 0.000000000000000000, 0.000000000000000000, 0.000000000000000000 ) ) ;
#83 = LOCAL_TIME ( 9, 23, 42.00000000000000000, #175 ) ;
#84 = UNCERTAINTY_MEASURE_WITH_UNIT (LENGTH_MEASURE( 1.000000000000000082E-05 ), #14, 'distance_accuracy_value', 'NONE');
#85 = ORIENTED_EDGE ( 'NONE', *, *, #112, .F. ) ;
#86 = PERSON ( 'UNSPECIFIED', 'UNSPECIFIED', 'UNSPECIFIED', ('UNSPECIFIED'), ('UNSPECIFIED'), ('UNSPECIFIED') ) ;
#87 = PERSON_AND_ORGANIZATION_ROLE ( 'design_supplier' ) ;
#88 = EDGE_LOOP ( 'NONE', ( #121, #142 ) ) ;
#89 = ORIENTED_EDGE ( 'NONE', *, *, #112, .T. ) ;
#90 = ORIENTED_EDGE ( 'NONE', *, *, #26, .T. ) ;
#91 = ADVANCED_FACE ( 'NONE', ( #148 ), #25, .T. ) ;
#92 = FACE_OUTER_BOUND ( 'NONE', #59, .T. ) ;
#93 = CYLINDRICAL_SURFACE ( 'NONE', #127, 12.69999999999999929 ) ;
#94 = DIRECTION ( 'NONE',  ( 0.000000000000000000, 0.000000000000000000, 1.000000000000000000 ) ) ;
#95 = AXIS2_PLACEMENT_3D ( 'NONE', #49, #12, #147 ) ;
#96 = APPLICATION_CONTEXT ( 'configuration controlled 3d designs of mechanical parts and assemblies' ) ;
#97 = DATE_AND_TIME ( #43, #83 ) ;
#98 = APPROVAL_PERSON_ORGANIZATION ( #65, #17, #152 ) ;
#99 = AXIS2_PLACEMENT_3D ( 'NONE', #120, #54, #116 ) ;
#100 = COORDINATED_UNIVERSAL_TIME_OFFSET ( 8, 0, .AHEAD. ) ;
#101 = EDGE_LOOP ( 'NONE', ( #10, #171, #144, #85 ) ) ;
#102 = APPROVAL ( #62, 'UNSPECIFIED' ) ;
#103 =( GEOMETRIC_REPRESENTATION_CONTEXT ( 3 ) GLOBAL_UNCERTAINTY_ASSIGNED_CONTEXT ( ( #84 ) ) GLOBAL_UNIT_ASSIGNED_CONTEXT ( ( #14, #51, #135 ) ) REPRESENTATION_CONTEXT ( 'NONE', 'WORKASPACE' ) );
#104 = ORIENTED_EDGE ( 'NONE', *, *, #15, .T. ) ;
#105 = APPROVAL_PERSON_ORGANIZATION ( #46, #64, #118 ) ;
#106 = CARTESIAN_POINT ( 'NONE',  ( -1.187907395172932594E-15, 0.000000000000000000, 0.000000000000000000 ) ) ;
#107 = CLOSED_SHELL ( 'NONE', ( #162, #91, #29, #55 ) ) ;
#108 = CC_DESIGN_PERSON_AND_ORGANIZATION_ASSIGNMENT ( #78, #163, ( #68 ) ) ;
#109 = DIRECTION ( 'NONE',  ( 0.000000000000000000, 0.000000000000000000, 1.000000000000000000 ) ) ;
#110 = VECTOR ( 'NONE', #72, 1000.000000000000000 ) ;
#111 = CIRCLE ( 'NONE', #131, 12.69999999999999929 ) ;
#112 = EDGE_CURVE ( 'NONE', #23, #47, #21, .T. ) ;
#113 = CC_DESIGN_PERSON_AND_ORGANIZATION_ASSIGNMENT ( #167, #66, ( #52 ) ) ;
#114 = AXIS2_PLACEMENT_3D ( 'NONE', #39, #61, #94 ) ;
#115 = COORDINATED_UNIVERSAL_TIME_OFFSET ( 8, 0, .AHEAD. ) ;
#116 = DIRECTION ( 'NONE',  ( 0.000000000000000000, 0.000000000000000000, -1.000000000000000000 ) ) ;
#117 = APPROVAL_STATUS ( 'not_yet_approved' ) ;
#118 = APPROVAL_ROLE ( '' ) ;
#119 = ORIENTED_EDGE ( 'NONE', *, *, #149, .F. ) ;
#120 = CARTESIAN_POINT ( 'NONE',  ( -5.939536975864662969E-16, 12.69999999999999929, 0.000000000000000000 ) ) ;
#121 = ORIENTED_EDGE ( 'NONE', *, *, #26, .F. ) ;
#122 = CALENDAR_DATE ( 2021, 5, 1 ) ;
#123 = APPROVAL_ROLE ( '' ) ;
#124 = COORDINATED_UNIVERSAL_TIME_OFFSET ( 8, 0, .AHEAD. ) ;
#125 = DATE_AND_TIME ( #122, #4 ) ;
#126 = LOCAL_TIME ( 9, 23, 42.00000000000000000, #115 ) ;
#127 = AXIS2_PLACEMENT_3D ( 'NONE', #79, #50, #42 ) ;
#128 = PLANE ( 'NONE',  #99 ) ;
#129 = APPROVAL_DATE_TIME ( #97, #102 ) ;
#130 = DIRECTION ( 'NONE',  ( 0.000000000000000000, 0.000000000000000000, 1.000000000000000000 ) ) ;
#131 = AXIS2_PLACEMENT_3D ( 'NONE', #40, #165, #161 ) ;
#132 = LINE ( 'NONE', #36, #110 ) ;
#133 = DATE_TIME_ROLE ( 'creation_date' ) ;
#134 = PERSON_AND_ORGANIZATION ( #86, #168 ) ;
#135 =( NAMED_UNIT ( * ) SI_UNIT ( $, .STERADIAN. ) SOLID_ANGLE_UNIT ( ) );
#136 = SECURITY_CLASSIFICATION_LEVEL ( 'unclassified' ) ;
#137 = DESIGN_CONTEXT ( 'detailed design', #96, 'design' ) ;
#138 = LOCAL_TIME ( 9, 23, 42.00000000000000000, #100 ) ;
#139 = APPROVAL_PERSON_ORGANIZATION ( #13, #102, #123 ) ;
#140 = FACE_OUTER_BOUND ( 'NONE', #88, .T. ) ;
#141 = PRODUCT_DEFINITION ( 'UNKNOWN', '', #52, #137 ) ;
#142 = ORIENTED_EDGE ( 'NONE', *, *, #69, .F. ) ;
#143 = AXIS2_PLACEMENT_3D ( 'NONE', #82, #2, #159 ) ;
#144 = ORIENTED_EDGE ( 'NONE', *, *, #41, .T. ) ;
#145 = ORIENTED_EDGE ( 'NONE', *, *, #149, .T. ) ;
#146 = CC_DESIGN_APPROVAL ( #17, ( #141 ) ) ;
#147 = DIRECTION ( 'NONE',  ( 1.000000000000000000, 0.000000000000000000, 0.000000000000000000 ) ) ;
#148 = FACE_OUTER_BOUND ( 'NONE', #101, .T. ) ;
#149 = EDGE_CURVE ( 'NONE', #47, #23, #111, .T. ) ;
#150 = APPROVAL_STATUS ( 'not_yet_approved' ) ;
#151 = APPROVAL_DATE_TIME ( #125, #17 ) ;
#152 = APPROVAL_ROLE ( '' ) ;
#153 = PERSON_AND_ORGANIZATION ( #86, #168 ) ;
#154 = CC_DESIGN_DATE_AND_TIME_ASSIGNMENT ( #45, #170, ( #7 ) ) ;
#155 = DATE_AND_TIME ( #34, #126 ) ;
#156 = VERTEX_POINT ( 'NONE', #38 ) ;
#157 = CIRCLE ( 'NONE', #81, 12.69999999999999929 ) ;
#158 = DIRECTION ( 'NONE',  ( -1.000000000000000000, -0.000000000000000000, -0.000000000000000000 ) ) ;
#159 = DIRECTION ( 'NONE',  ( 0.000000000000000000, 0.000000000000000000, 1.000000000000000000 ) ) ;
#160 = ADVANCED_BREP_SHAPE_REPRESENTATION ( 'B270-RNDF-25.4-3', ( #174, #95 ), #103 ) ;
#161 = DIRECTION ( 'NONE',  ( 0.000000000000000000, 0.000000000000000000, 1.000000000000000000 ) ) ;
#162 = ADVANCED_FACE ( 'NONE', ( #166 ), #93, .T. ) ;
#163 = PERSON_AND_ORGANIZATION_ROLE ( 'design_owner' ) ;
#164 = APPLICATION_CONTEXT ( 'configuration controlled 3d designs of mechanical parts and assemblies' ) ;
#165 = DIRECTION ( 'NONE',  ( -1.000000000000000000, -0.000000000000000000, -0.000000000000000000 ) ) ;
#166 = FACE_OUTER_BOUND ( 'NONE', #20, .T. ) ;
#167 = PERSON_AND_ORGANIZATION ( #86, #168 ) ;
#168 = ORGANIZATION ( 'UNSPECIFIED', 'UNSPECIFIED', '' ) ;
#169 = PRODUCT_DEFINITION_SHAPE ( 'NONE', 'NONE',  #141 ) ;
#170 = DATE_TIME_ROLE ( 'classification_date' ) ;
#171 = ORIENTED_EDGE ( 'NONE', *, *, #69, .T. ) ;
#172 = CARTESIAN_POINT ( 'NONE',  ( -1.187907395172932594E-15, 1.555301434917138433E-15, -12.69999999999999929 ) ) ;
#173 = CARTESIAN_POINT ( 'NONE',  ( 1.999999999999998224, 1.555301434917138433E-15, -12.69999999999999929 ) ) ;
#174 = MANIFOLD_SOLID_BREP ( 'Ðý×', #107 ) ;
#175 = COORDINATED_UNIVERSAL_TIME_OFFSET ( 8, 0, .AHEAD. ) ;
ENDSEC;
END-ISO-10303-21;
